金沙ag吉他谱

 找回暗码
 立刻注册

只需一步,快速开始

许巍 - 蓝莲花

2019-6-22 00:17| 公布者: admin666| 检察: 57785| 批评: 0

  • 原调:1=DCapo=1
  • 节拍:歌手:许巍
132D213G123A1342Bm23Em

D有什么可以阻G
D对自在的渴望A   
A   天马行空的生Bm
A   你的心了无牵Bm
Em   穿过昏暗的光阴A   
Em   也曾感触徘徊A   
A   当你抬头的瞬Bm
A   才觉察脚下的路Bm   
D   心中那自在的天下G   
G   云云的明澈高远D   
D   怒放着永不凋谢G   
蓝莲D A   
|---------------------|--------------------|
|-----3-5-5-7-5--3----|-----3-5-5-7-10--5--|
|-2-4---------------4-|-2-4----------------|
|---------------------|--------------------|
|---------------------|--------------------|
|---------------------|--------------------|

|--------------------|--------------------|
|-5-5---5-5-5-7-5-3--|-3--5-5-5------3----|
|-----2--------------|----------2--4---4--|
|--------------------|--------------------|
|--------------------|--------------------|
|--------------------|--------------------|

|-3-3-3-2-------------|-3-3-7-5-3----------|
|---------5-3-5--7-5--|-----------5--7-5---|
|---------------------|--------------------|
|---------------------|--------------------|
|---------------------|--------------------|
|---------------------|--------------------|

|--------------------|--------------------|
|-5-5---5-5-5--7-5-3-|-3--5-5-5------3----|
|-----2--------------|----------2--4---4--|
|--------------------|--------------------|
|--------------------|--------------------|
|--------------------|--------------------|
宣布批评

最新批评

QQ||吉他谱 ( )

GMT+8, 2022-1-23 00:42

Powered by xiaolu X3.4

© 2001-2019 jita666

前往顶部